acordes.cc 
 letras y acordes > d > divididos > casi estatua diccionario de acordes 
Casi Estatua de Divididos
AUTOR: Jorge Araujo, Diego Arnedo, Ricardo Mollo
Divididos Tabs
LaCuerda.net
imprimir Casi Estatua de Divididos 
Intro: E(Estoy preparando los punteos)

E                   F#
Con la cara hecha ajedrez
B                A
va la magia militar
en la vida hecha ajedrez
nunca el peon se come al rey

Riff

E|--------------------------------------------------|
B|--------------------------------------------------|
G|--------------------------------------------------|
D|----------------------------7s9-9-9-7-7-5---------|
A|-5h7-7-5-7-5---5h7-7-5-7-5------------------7-5-7-|
e|--------------------------------------------------|

Sueldo de heroe quincenal
casi estatua de estación
patria de un boyero muerto
y tambero digital

Riff

Estribillo:
G        D
Dale soga
C                F#
ponga humor a la verdad
G                     D
esta tierra es cero peso
C       A     (G# G F# F)
no es real


Ansias de depredador
rostro Kennedy te haces  Riff
pan y circo y la coco
así te hiciste creer   Riff
los duendes del interior
con lujuria de ratón

Solo: Con Riff 1 y luego riff 2.

Este son los riffs 1 y 2 con WAH WAH:

E|--------------------------------------------------|
B|--------------------------------------------------|
G|--------------------------------------------------|
D|----------------------------7s9-9-9-7-7-5---------|
A|-5h7-7-5-7-5---5h7-7-5-7-5------------------7-5-7-|
e|--------------------------------------------------|

E|--------------------------------------------------|
B|--------------------------------------------------|
G|--------------------------9s11-11-11-9-9-7--------|
D|-7h9-9-7-9-7--7h9-9-7-9-7-------------------9-7-9-|
A|--------------------------------------------------|
e|--------------------------------------------------|

Solo con intro: E F# B A


nunca el peón se come al rey
dale soga 
ponga humor a la verdad
esta tierra cero peso
no es real

Recitado Por Diego Arnedo:

Empachado de lavar
la fortuna en soledad
nunca el peon se come al rey

Cantando otra vez:
dale soga 
ponga huevo a la verdad
esta tierra es cero peso
esta tierra es cero peso
no es real


()Aca usa mas acordes, no lo pude poner por que el sonido 
se me hace medio confuso.
Este fichero es trabajo propio de su transcriptor y representa su interpretación personal de la canción. El material contenido en esta página es para exclusivo uso privado, por lo que se prohibe su reproducción o retransmisión, así como su uso para fines comerciales.

Fuente: Casi Estatua: Letra y Acordes (LaCuerda.net)


Otras partituras que podrían interesarte: