acordes.cc 
 letras y acordes > c > cielo razzo > buscando más diccionario de acordes 
Buscando más de Cielo Razzo
AUTOR: Fernando aime
Cielo Razzo Tabs
LaCuerda.net
imprimir Buscando más de Cielo Razzo 
Intro
e----------------------------------------------------
B----------------------------------------------------
G-------4-6------4-6--------4-6h7-7-9-12-12h11--979--
D---45---5-----45-5-------45-5-----------------------
A--7---------7---------7-----------------------------
E----------------------------------------------------



Se hace el Em en el traste 7
(solamente en las estrofas, en el estribillo lo hace normalmente)
e|-7-|
B|-8-|
G|-9-|
D|-9-|
A|-7-|
E|-7-|

Intro Em x8


Mientras canta, una guitarra hace los acordes, otra hace esto
(en todas las estrofas)
e-------------------------------------
B-------------------------------------
G----4------------------4-------------
D--45-55454-----------45-55454--------
A-7---------75--5/7--7---------75-5---
E-------------7------------------7----

Em
Hombres de mundo liso trajeados

Em                             Am     G  D
de esperanza, honrados deciden y van

Em
Este abril tan conveniente donde...

Em                            Am           G       D         Em
el trigo crece a tus costumbres... y la pradera pierde dignidad...(coro)




En el estribillo un guitarra hace esto, la otra los acordes
e------5-------3------2------------------------------
B-------5-------3------3-----------------------------
G----5---5---4---4---2--2----------------------------
D--7-------------------------------------------------
A----------------------------------------------------
E----------------------------------------------------

G         Bm
ahhh..la felicidad esta en el sol

G                   Am
este desgaste justifica tu estadia

G                  F          Em
buscando perversiones nuevas



Em
cruzando la frontera en esta ruta

Em                        Am     G           D
me sumerjo en el santisimo...infierno de felicidad

Em
soles que chocan en 'big bang' infertil

Em                     Am      G      D           Em
al placer de este letargo..desvelado en un divan



G          Bm
ahhh... la felicidad esta en el sol

G               Am
este desgaste justifica tu estadia

G              F          Em
buscando perversiones nuevas

G           Bm           G          Am
ahhh... la felicidad...  esta en el sol

G                F          Em
buscando perversiones nuevas



D
La luz talla sombra en tus ojos

D
arriba de un muelle despojos

Cm
mirando siempre esta canción


e---------------------------------------- ------------
B---------------------------------------- ------------
G-----4764-764--4----------4764-764--4--- ------------
D-457----------7-754---457----------7-75- -754-542----
A---------------------------------------- ------------
E---------------------------------------- ------------
 |__________________|
       3 veces


Em
Hombres de mundo liso trajeados

Em                                Am      G D
de esperanza, honrados de deciden y van


(solo harmónica) G - Bm - G - Am - G - F - Em (2x)



D
La luz talla sombra en tus ojos

D
arriva de un muelle despojo

Cm
mirando...


G            Bm            G           Am
ahhh... la felicidad...  esta en el sol

G                F       Em
buscando perversiones nuevas  [2x]

final: G - F (3x) Em

---------------------------------------------------------------

aca esta el tema completo..gracias a Marquitox que me paso los riff..
suena bastante bien..asi que a tocar =)..saludoss marcee1
Este fichero es trabajo propio de su transcriptor y representa su interpretación personal de la canción. El material contenido en esta página es para exclusivo uso privado, por lo que se prohibe su reproducción o retransmisión, así como su uso para fines comerciales.

Fuente: Buscando más: Letra y Acordes (LaCuerda.net)


Otras partituras que podrían interesarte: