acordes.cc 
 letras y acordes > g > gustavo cerati > bajan diccionario de acordes 
Bajan de Gustavo Cerati
AUTOR: Luis Alberto Spinetta
Gustavo Cerati Tabs
LaCuerda.net
imprimir Bajan de Gustavo Cerati 
Album :Amor amarillo(1993)


 E        [022100]
 F#m      [244222]
 C#m      [x46654]
 Fdim7    [xx4545]
 |B        [x24442]
 G#m      [466444]
 Cdim     [x3454x]
 C        [87555x]
 Am7      [575555]
 Ab       [xx6554]
 G#m7     [x64444]
 Emaj9    [x74444]
 A7       [575655]


Riff:

e|-----0-----------0---------0-----------0------|
B|--------0-----2---------------0-----2---------|
G|--1--------1---------------------1------------| x4
D|--2-------------------------------------------|
A|--2-------------------------------------------|
E|--0-----------------3b--0-----------------3b--|


E             F#m
 Tengo tiempo, para saber

C#m       Fdim7     B
 si lo que sueño concluye en algo.

E             F#m
 No te apures, ya más mi amor

C#m       Fdim7     B
 porque es entonces cuando las horas




C#m    G#m        B         C#m
 Bajan, el día es vidrio sin sol
e|---------------------------|
B|---7b88r5- 7-5-------------|
G|---------------6-----------|
D|---------------------------|
A|---------------------------|
E|---------------------------|

C#m    G#m           B   Cdim   C#m
 Bajan, la noche te oculta la   voz
e|---------------------------|
B|--7b-7b---5-7-5--5---------|
G|---------------------------|
D|---------------------------|
A|---------------------------|
E|---------------------------|

     C
 Y además,

e|---------------------------|
B|----8--7--5----------------|
G|------------7--5-4---------|
D|--------------------7---5--|
A|---------------------------|
E|---------------------------|


Am7  G#m     F#m
 vos que eres Sol

     C#m    Ab                   C#m G#m7 Emaj9 A7
Despacio también, podés ser la luna

Break:

       C#m        G#m7       Emaj9      A7
e|--------------------------------------5---------|
B|-----------.--------------------------5---------|
G|--------6-----------4-----------4-----6---------|
D|-----6-----------4-----------4--------5---------|
A|--4-----------6-----------7-----------7---------|
E|--------------------------------------5---------|


Riff

e|-----0-----------0---------0-----------0------|
B|--------0-----2---------------0-----2---------|
G|--1--------1---------------------1------------| x4
D|--2-------------------------------------------|
A|--2-------------------------------------------|
E|--0-----------------3b--0-----------------3b--|


E           F#m
Viejo roble del camino

C#m       Fdim7     B
tus hojas siempre se agitan algo.

E             F#m
Nena, nena que bien te ves

C#m       Fdim7     B
cuando en tus ojos no importa si las horas.

C#m    G#m        B         C#m
Bajan, el día se sienta a morir

e|---------------------------|
B|---7b88r5- 7-5-------------|
G|---------------6-----------|
D|---------------------------|
A|---------------------------|
E|---------------------------|


C#m    G#m           B-Cdim    C#m
Bajan, la noche se nubla sin   fin
e|---------------------------|
B|--7b-7b---5-7-5--5---------|
G|---------------------------|
D|---------------------------|
A|---------------------------|
E|---------------------------|


   C
Y además,
e|---------------------------|
B|----8--7--5----------------|
G|------------7--5-4---------|
D|--------------------7---5--|
A|---------------------------|
E|---------------------------|

 Am7  G#m     F#m
 vos sos el sol

     C#m    Ab                   C#m G#m7 Emaj9 A7
Despacio también podés ser la luna.
Break:

       C#m        G#m7       Emaj9      A7
e|--------------------------------------5---------|
B|-----------.-----------.--------------5---------|
G|--------6-----------4-----------4-----6---------|
D|-----6-----------4-----------4--------5---------|
A|--4-----------6-----------7-----------7---------|
E|--------------------------------------5---------|

e|-----------------------|-------------------------|
B|-----------------------|-------------------------|
G|-9---9---9---9-----12--|----6---6---6---6-----9--|
D|-----------------------|-x2----------------------|x2
A|-7-7-7-7-7-7-7-7-7-10--|----4-4-4-4-4-4-4-4-4-7--|
E|-----------------------|-------------------------|

Repite hasta desvanecer
Transcripcion por Marcelo Delaguardia
Este fichero es trabajo propio de su transcriptor y representa su interpretación personal de la canción. El material contenido en esta página es para exclusivo uso privado, por lo que se prohibe su reproducción o retransmisión, así como su uso para fines comerciales.

Fuente: Bajan: Letra y Acordes (LaCuerda.net)


Otras partituras que podrían interesarte: