acordes.cc 
 letras y acordes > c > cielo razzo > arde diccionario de acordes 
Arde de Cielo Razzo
AUTOR: Cielo razzo
Cielo Razzo Tabs
LaCuerda.net
imprimir Arde de Cielo Razzo 
A mi criterio el mejor tema del CD, es impresionante la letra 
como asi tambien muy conmovedora.... Aguante Cielo Razzo!!!!!

Cielo Razzo/Arde (TAB)

Intro (x2)
  C     C/F            C     C/F
e|------------0-------|------------0-------|
B|----------1-----1---|----------1-----1---|
G|----0---0-----0---0-|----0---0-----0-----|
D|--2---3-------------|--2---3-------------|
A|3-------------------|3-------------------|
E|--------------------|--------------------|


  Me dejé matar         me dejé robar el alma
e|------------0-------|------------0-------|
B|----------1-----1---|----------1-----1---|
G|----0---0-----0---0-|----0---0-----0-----|
D|--2---3-------------|--2---3-------------|
A|3-------------------|3-------------------|
E|--------------------|--------------------|

  pagué sin querer     sin querer te lastimé...
e|------------0-------|------------0-------|
B|----------1-----1---|----------1-----1---|
G|----0---0-----0---0-|----0---0-----0-----|
D|--2---3-------------|--2---3-------------|
A|3-------------------|3-------------------|
E|--------------------|--------------------|


  QUE DARIA EN ESTA VIDA     POR VOLVER, AMOR MIO
e|------1------------1-----|------------0-------|
B|--------1------------1---|----------1-----1---|
G|----3-----3-----3------3-|----0---0-----0---0-|
D|--3-----------3----------|--2---3-------------|
A|1-----------1------------|3-------------------|
E|-------------------------|--------------------|

  QUE DARIA EN ESTA VIDA     POR VOLVER...
e|------1------------1-----|------------0-------|
B|--------1------------1---|----------1-----1---|
G|----3-----3-----3------3-|----0---0-----0-----|
D|--3-----------3----------|--2---3-------------|
A|1-----------1------------|3-------------------|
E|-------------------------|--------------------|


[Esto se puede hacer con rasguido o bien seguir con los arpegios]
C           C/F    C                      C/F
Me deje atrapar,   por la selva de los ruidos
C         C/F    C                  C/F
nunca imaginé,   que sería mi destino...

Bbsus2                         C  C/F
QUE DARIA EN ESTA VIDA POR ARDER, AMOR MIO
Bbsus2                         C  C/F
QUE DARIA EN ESTA VIDA POR ARDER...

G#                          Gm
El bar de la esquina, rutas de melancolias
F#                         F
y una guitarra loca, en el andén de las heridas
G#                           Gm
Remendando infiernos tras la ruina de tu olvido
F#                            F                  C
y una guitarra loca que me arranca los sentidos


C           C/F    C                      C/F
Me dejé arropar,   y quedarme al fin dormido
C           C/F     C                      C/F
desperté sin vos,   pero me guardo este grito....
Bbsus2
yeeeeeee

Bbsus2                          C  C/F
QUE DARIA EN ESTA VIDA POR VOLVER, AMOR MIO
Bbsus2                          C  C/F
QUE DARIA EN ESTA VIDA POR VOLVER...

G#                          Gm
El bar de la esquina, rutas de melancolias
F#                         F
y una guitarra loca, en el andén de las heridas
G#                           Gm
Remendando infiernos tras la ruina del olvido
F#                            F                  C
y una guitarra loca que me arranca los sentidos

C          C/F     C                        C/F
Me deje matar,     me deje matar, me deje matar....

QUE DARIA.....

El bar de la esquina.... (2 Veces)


ACORDES:

  C/F
e|-0-|
B|-1-|
G|-0-|
D|-3-|
A|-3-|
E|-0-|

Bbsus2
e|-1-|
B|-1-|
G|-3-|
D|-3-|
A|-1-|
E|-x-|

¡¡¡PARA VOS TAMY, SIEMPRE PRESENTE EN MI CORAZON Y EN EL DE TODOS TUS AMIGOS!!!
Este fichero es trabajo propio de su transcriptor y representa su interpretación personal de la canción. El material contenido en esta página es para exclusivo uso privado, por lo que se prohibe su reproducción o retransmisión, así como su uso para fines comerciales.

Fuente: Arde: Letra y Acordes (LaCuerda.net)


Otras partituras que podrían interesarte: