acordes.cc 
 letras y acordes > c > claudio cuellar > aqui estoy yo diccionario de acordes 
Aqui estoy yo de Claudio Cuellar
AUTOR: -?-
Claudio Cuellar Tabs
LaCuerda.net
imprimir Aqui estoy yo de Claudio Cuellar 
*NOTA: LOS ACORDES DE A Y D SON ASI:
          A 
e|-----|------|------|
B|-----|------|------|
G|-----|---0--|------|
D|-----|---0--|------|
A|-----|------|------|
E|-----|------|------|
          D 
e|-----|------|------|
B|-----|------|---0--|
G|-----|---0--|------|
D|-----|------|------|
A|-----|------|------|
E|-----|------|------|

Intro 
       A                  D                A           E        D        
e|---------0--|--0-------0/2-0-------|---------0--|-------0-|----0-
B|--0---------|-----3----------3---3-|--0---------|-----0---|---3--
G|----2----2--|-------2----------2---|----2----2--|----1-1--|--2---
D|------2-----|--0-------------------|------2-----|---2-----|-0----
A|--0---------|----------------------|--0---------|--2------|------
E|------------|----------------------|------------|-0-------|------

Con el arpegio del intro :
Nota: no todas las notas de D al final de la estrofa terminan
con -0/2-0- cheken la cancion.
    A               D               A       D
Pensando en ti Hoy descubri lo que hay en mi
   A              D        A               D 
Es el deseo de estar por siempre junto a ti
        E          D 
Porque simplemente eres
       A                  D  
lo que yo queria encontrar
    E                 D 
una perfeccion de Dios

-------------------------------------------------------------------
Precoro, con el arpegio del intro todavia
   A              D          A    D 
Dejame entrar te juro no fallarte
  A                 D      A             D
Deveras no te miento por ti yo estoy muriendo
            E               D          
Aunque hay algo que no entiendo
  Gbm                E   D
Como te llegue a querer

-------------------------------------------------------------------
Coro -Rasgueo-
     A     
Si aqui estoy yo
     D                       A
el que te extraña cada amanecer
        D                       Gbm             
el que nunca va a dejarte de querer
        Bm                    A    D
aunque sientas que estas tan sola
     A
Y aqui estare 
     D                         A
Porque me encanta tu forma de ser
    D                         Gbm
yo solo quiero hacerte comprender
         Bm        A    D
que te haria mas feliiiz

A D A D Gbm Bm A D

-------------------------------------------------------------------
Precoro -Arpegeo del intro-
   A              D          A    D 
Dejame entrar te juro no fallarte
  A                 D      A             D
Deveras no te miento por ti yo estoy muriendo
            E               D          
Aunque hay algo que no entiendo
  Gbm                E   D
Como te llegue a querer

-------------------------------------------------------------------
Coro -Rasgueo-
     A     
Si aqui estoy yo
     D                       A
el que te extraña cada amanecer
        D                       Gbm             
el que nunca va a dejarte de querer
        Bm                    A    D
aunque sientas que estas tan sola
     A
Y aqui estare 
     D                         A
Porque me encanta tu forma de ser
    D                         Gbm
yo solo quiero hacerte comprender
         Bm        A    D
que te haria mas feliiiz

El final son el arpegio del principio
       A      D        A  D        A <--(este ultimo acorde 
te extraaaño..     uu u   uuuuuuuu     rasgado de abajo a arriba)
Este fichero es trabajo propio de su transcriptor y representa su interpretación personal de la canción. El material contenido en esta página es para exclusivo uso privado, por lo que se prohibe su reproducción o retransmisión, así como su uso para fines comerciales.

Fuente: Aqui estoy yo: Letra y Acordes (LaCuerda.net)


Otras partituras que podrían interesarte: