acordes.cc 
 letras y acordes > b > benny ibarra > angeles diccionario de acordes 
Angeles de Benny Ibarra
AUTOR: Miah Méndez, Memo Méndez Guiú
Benny Ibarra Tabs
LaCuerda.net
imprimir Angeles de Benny Ibarra 
esta cancion se la dedico a MARIANA que es mi angel

riff 1

A          A7             D
A veces me da y me hago creer
         Dm                       A
que para mi ya no hay nada que hacer
       A7                      D              Dm
esta locura que hay dentro de mi me va a consumir


A             A7                  D
se cierra mi mente y no puedo pensar
        Dm                  A
una espiral que no puedo parar
             A7                   D                  Dm
mi miedo se vuelve mas grande que yo y pierdo el control


Bm                    E
triste,solo,torturado ya no puedo mas



E               A
pero me llueven angeles del cielo
                 D          E
y me acarician flores al pasar
                A
se me aparecen magicas sirenas
                D             E
y tu eres una de ellas te lo puedo asegurar


riff 1
     A            A7           D            Dm
e---7/9--9---7---9-------------------------------------
b-------------------10---8---10---8---10---8-----------
g----------------------------------------------11------
D------------------------------------------------------
A------------------------------------------------------
E------------------------------------------------------

     A            A7           D            Dm

e----7/9---9---7----------------------------------------
b-------------------10----6---8----6--------------------
g----------------------------------------9--------------
D-------------------------------------------------------
A-------------------------------------------------------
E-------------------------------------------------------


A           A7              D
A veces quisiera poder escapar
             Dm                A
vivir en un sueño y no despertaaar
              A7                  D
no se como hacerle; por donde empezar
               Dm
si todo esta maaal



Bm                        E
estoy cansado ya no juego oh oh oh





E               A
pero me llueven angeles de cielo...



F
en este leberinto tu me encuentras la salida
G                                               A
cada vez que necesito apareces en mi vida otra veeeez
F
me tomas de la mano y muestras soluciones
G                                            A
me llenas de tu calma hasta que regrese mi feeeeee  uh oh oh oh oh


riff 1 lalalalalalalalalalalalalalalal

E               A
pero me llueven angeles del cielo...


FIN.

ESPERO LES HAYA GUSTADO CUALQUIER COMENTARIO ESCRIBAN A MI MAIL

ARRIBA BENNY IBARRA!!!!!!!!!!!!!!!!!!!!!!
Este fichero es trabajo propio de su transcriptor y representa su interpretación personal de la canción. El material contenido en esta página es para exclusivo uso privado, por lo que se prohibe su reproducción o retransmisión, así como su uso para fines comerciales.

Fuente: Angeles: Letra y Acordes (LaCuerda.net)


Otras partituras que podrían interesarte: