acordes.cc 
 letras y acordes > f > fernando delgadillo > andromeda diccionario de acordes 
Andromeda de Fernando Delgadillo
AUTOR: David campos ponce
Fernando Delgadillo Tabs
LaCuerda.net
imprimir Andromeda de Fernando Delgadillo 
la manera mas facil de conseguir la rola 
es por internet ya que esta no salio en 
ninguno de los discos de Feb13 del 99

INTRO:

GUITARRA 1
  C         G         F                   C         G         F
e|----------------3----------1----------------------------3---------1-----------
B|------1-------3---3-----1---------------------1-------3---3-----1-------------
G|----0---0---0---------2---------------------0---0---0---------2---------------
D|--2---------------------------------------2-----------------------------------
A|3---------------------------------------3-------------------------------------
E|----------3---------1-----------------------------3---------1-----------------

GUITARRA 2
e|-----------------------------0-0-0--0-0--0---0-------------0--------0-0-0--0-0
B|-----------------------------8-8-8--8-8--8/1-1----------3/5---------8-8-8--8-8
G|------------------------------------------------------0-----------------------
D|------------------------------------------------------------------------------
A|----------------------------------------------------2-------------------------
E|--------------------------------------------------3---------------------------

VERSO 1:
C              G                F   
 Te vistes de negro distante galaxia
                                       C
 Me envuelves de pronto profunda y extraña
                G                  F
 Te mueves de prisa llevando mi aliento
                           C            G    F
 Viajando tu ruta de fe a contratiempoooo   ooooo


VERSO 2:
C               G                     F
 Principio te dió una explosión de repente
                                     C
 Visión de colores me inundas me enciendes
                G                     F
 Viajando tu espacio que llevo en la mente
                                     C    G     F
 Me dejas reflejos que expresan mi suerte eee eeeee


CORO:
          Am            Em          F
Quien te descubrió no supo ni la mitad
        C               G         F
De la esencia que te hace particular
          Am   Em       F
Tan especial,     original
        Dm             G       C       C/B    Am   G
Fue la noche, fue emoción, quizás mi imaginación
           F          G               C
Que al querer amarte   sólo te llamó


VERSO 3:
C             G                F
 Te miro de abajo me quedas lejana
                                      C
 Quisiera arrancarte de un golpa las ganas
               G                 F
 Vigilas mi andar por encima viajera
                                            C        G   F
 Te llevo en la piel me has cubierto de estrellas  aaa aaaaaa


CORO:
          Am            Em          F
Quien te descubrió no supo ni la mitad
        C               G         F
De la esencia que te hace particular
          Am   Em       F
Tan especial,     original
        Dm             G       C       C/B    Am   G
Fue la noche, fue emoción, quizás mi imaginación
           F          G               C
Que al querer amarte   sólo te llamó
            F              G          C       C/B   Am   G
Fue un chispazo, fue un error  no preguntes que se yo
          F               G          C  C/B-Am-F
Que al ponerte nombre Andromeda te dió
                C  C/B-Am-F                  C  C/B-Am-F
Te puso Andromeda,           te puso Andromeda

FIN:
e|-----------------------------------------|
B|-5-5---------5-5---------5-5-------------|
G|-5-5-x-x-x-x-5-5-x-x-x-x-5-5-x-x-x-x-x-x-|
D|-5-5-x-x-x-x-5-5-x-x-x-x-5-5-x-x-x-x-x-x-...y así, solo oigan el ritmo que lle
A|-3-3-x-x-x-x-3-3-x-x-x-x-3-3-x-x-x-x-x-x-|
E|-----------------------------------------|
Este fichero es trabajo propio de su transcriptor y representa su interpretación personal de la canción. El material contenido en esta página es para exclusivo uso privado, por lo que se prohibe su reproducción o retransmisión, así como su uso para fines comerciales.

Fuente: Andromeda: Letra y Acordes (LaCuerda.net)


Otras partituras que podrían interesarte: