acordes.cc 
 letras y acordes > p > panda > ando pedo y ella está aquí diccionario de acordes 
Ando pedo y ella está aquí de Panda
AUTOR: José Madero Vizcaino
Panda Tabs
LaCuerda.net
imprimir Ando pedo y ella está aquí de Panda 
INTRO(con ritmo metalero)

E5  F#5  G5  F#5
E5  F#5  G5  A5

INTRO 2

E---------------------------------------------------
A---------------------------------------------------
D---------------------------------------------------
G-------0-2-0-------0-2-0-------0-2-0---------------
B-3-1-0-------3-1-0-------3-1-0-------3-------3-----
E---------------------------------------2-3-2---0---

C5  B5  A5  G5

G5                E5                     C5
UNA ANTES DE VENIR A LA FIESTA DEL DELFIN
                   D5
YO ME HECHE COMO OCHO PISTOS
G5                E5                     C5
Y AHORA ESTOY AQUI YO ME SIRVO UN BACARDI
                   D5
Y ELLA ESTABA JUNTO A MIII

(mismos acordes)

NO PUEDO MIRAR ATRAS, ELLA SERCA ESTÁ
Y YA NO PUEDO RESPIRAR
LO BUENO ES QUE PEDO ESTOY Y VALIENTE SOY
ECHAME UN PISTO RÁPIDOOO

(aqui hay un pequeño cambio)

C5        D5
QUE YA VOY HACIA ELLA

CORO

G5  E5  C5  D5
Y LE VOY A LLEGAR
G5  E5  C5  D5
OTRO PISTO NECESITO
G5  E5  C5  D5
Y LE VOY A LLEGAR
E5
A LLEGAR

C5 B5 A5

INTRO 2

(mismos acordes)

YO ME HICE PARA ATRAS ESTO IBA A SALIR MAL
NO ME SALIAN LAS PALABRAS
CHANCE CON DOS PISTOS MAS YO ME ATREVARIA HA HABLAR
¿PARA QUE IBA A SERVIRME MAAAAS?

NO ME PUEDO NI PARAR
PERO ELLA AHI ESTA
NO LA PUEDO DEJAR PASAR
ESTO YA NO ES NATURAL
YA VOY PARA ALLA
MI ALIENTO A ALCOHOL ERAA

Y YA VOY HACIA ELLA

CORO

INTERMEDIO

E-3-3-3-------5-5-5-------------(x4)
A-5-5-5-5-3-2-7-7-7-5-5-3-2-----
D-------------------------------
G-------------------------------
B-------------------------------
E-------------------------------

se queda en G5

CORO

ESTA ROLA SE LA DEDICO A MI CUATES COCORO Y DANY
QUE LES GUSTA UN CHINGO EL PUNK.
DE ZAX.
Este fichero es trabajo propio de su transcriptor y representa su interpretación personal de la canción. El material contenido en esta página es para exclusivo uso privado, por lo que se prohibe su reproducción o retransmisión, así como su uso para fines comerciales.

Fuente: Ando pedo y ella está aquí: Letra y Acordes (LaCuerda.net)


Otras partituras que podrían interesarte: