acordes.cc 
 letras y acordes > e > enanitos verdes > amores lejanos diccionario de acordes 
Amores Lejanos de Enanitos Verdes
AUTOR: Felipe Staiti
Enanitos Verdes Tabs
LaCuerda.net
imprimir Amores Lejanos de Enanitos Verdes 
bueno aqui esta la rola de este gurpo k tanto me gusta,
mmm.. pues les dejo una base buena y k sirve, en todo caso
esta cancion tiene muchos detalles en el bajo k no voy a
escribir porque bien que cada uno puede meterle detalles
y arreglos propios como quieran, yo aqui les dejo la base.

primero el arpegio de la guitarra y depues entra el bajo asi


INTRO:

G|------55----------55-------------------------|
D|----7----7-----7------5------55-------55-----|
A|--5---------5--------------7----7---7-----5--|
E|-------------------------5--------5----------|

G|------55----------55-----------------|
D|----7----7-----7------5------55------|
A|--5---------5--------------7----7----|
E|-------------------------5---------5-|

G|---------------|
D|---------------|
A|-7-7-7-7-7-7-7-|
E|---------------|

VERSO:

"Esta tarde no pasa nada..."

G|------55----------55-------------------------|
D|----7----7-----7------5------55-------55-----|
A|--5---------5--------------7----7---7-----5--|
E|-------------------------5--------5----------|

G|------55----------55----------------|
D|----7----7-----7------5------55-----|
A|--5---------5--------------7----7---|
E|-------------------------5--------5-|

G|---------------|
D|---------------|
A|---------------|
E|-3-3-3-3-3-3-3-|

"yo mirando por la ventana..."

G|------55----------55-------------------------|
D|----7----7-----7------5------55-------55-----|
A|--5---------5--------------7----7---7-----5--|
E|-------------------------5--------5----------|

G|------55----------55---------------|-Aqui pueden jugar-----|
D|----7----7-----7------5------55----|-con las notas es corto|
A|--5---------8------------3-7----7--|-el tiempo pero metanle|
E|----------------------------------5|-para que no suene muy-|
                                       vacio

       las notas que improvisen van antesito del coro
       osea k tokan y despues va el coro.
"Nota: la notas q pueden tokar deben ser estas
       C, D, E, F, G, A, B,
       es decir obio k no pueden tokar
       C#, D#, F#, G#, A#
       para que no les valla a sonar mal
       ni disonante, alla uds el feeling que le pongan a
       lo que improvisen."

y despues va el coro

CORO:

"y aunque hoy no estas..."

G|----------------------------------------------------|
D|--------------------------------------55-------55---| -(X4)
A|------------------------------------7----7---7----7-|
E|-1-1-1-1-1-1-1-1--3-3-3-3-3-3-3-3-5--------5--------|


otra ves la intro

INTRO:

G|------55----------55-------------------------|
D|----7----7-----7------5------55-------55-----|
A|--5---------5--------------7----7---7-----5--|
E|-------------------------5--------5----------|

G|------55----------55---------------|
D|----7----7-----7------5------55----|
A|--5---------5--------------7----7--|
E|-------------------------5--------5|

G|---------------|
D|---------------|
A|-7-7-7-7-7-7-7-|
E|---------------|

"Esta tarde no pasa nada..."

G|------55----------55-------------------------|
D|----7----7-----7------5------55-------55-----|
A|--5---------5--------------7----7---7-----5--|
E|-------------------------5--------5----------|

G|------55----------55---------------|
D|----7----7-----7------5------55----|
A|--5---------5--------------7----7--|
E|-------------------------5--------5|

G|---------------|
D|---------------|
A|---------------|
E|-3-3-3-3-3-3-3-|

"Mi futuro es algo insierto..."

G|------55----------55-------------------------|
D|----7----7-----7------5------55-------55-----|
A|--5---------5--------------7----7---7-----5--|
E|-------------------------5--------5----------|

G|------55----------55----------------|
D|----7----7-----7------5------55-----|
A|--5---------8------------3-7----7---|
E|----------------------------------5-|

CORO

G|----------------------------------------------------|
D|--------------------------------------55-------55---| -(X4)
A|------------------------------------7----7---7----7-|
E|-1-1-1-1-1-1-1-1--3-3-3-3-3-3-3-3-5--------5--------|

SOLO DE GUITARRA

(va igual k la intro y el primer verso)

G|------55----------55-------------------------|
D|----7----7-----7------5------55-------55-----|
A|--5---------5--------------7----7---7-----5--|
E|-------------------------5--------5----------|

G|------55----------55----------------|
D|----7----7-----7------5------55-----|
A|--5---------5--------------7----7---|
E|-------------------------5--------5-|

G|---------------|
D|---------------|
A|-7-7-7-7-7-7-7-|
E|---------------|

G|------55----------55-------------------------|
D|----7----7-----7------5------55-------55-----|
A|--5---------5--------------7----7---7-----5--|
E|-------------------------5--------5----------|

G|------55----------55----------------|
D|----7----7-----7------5------55-----|
A|--5---------5--------------7----7---|
E|-------------------------5--------5-|

G|---------------|
D|---------------|
A|---------------|
E|-3-3-3-3-3-3-3-|

y va al coro

G|----------------------------------------------------|
D|--------------------------------------55-------55---| -(X4)
A|------------------------------------7----7---7----7-|
E|-1-1-1-1-1-1-1-1--3-3-3-3-3-3-3-3-5--------5--------|

(en este coro el improvisa un poko asi k si uds kieren haganlo
igual va a sonar bn si no lo hacen, la improvisada va,
cuando hace la figura en A es decir en ves de hacerla improvisa
usando las notas k les di arriba C, D, E, F, G, A, B.)

despues viene la parte del "oh oh oooh...."

bueno ahi el bajo se calla pero en el minuto

3:57 marca un D

y en la minuto 4:05 empieza otra ves la figura en D
pero solo hace esto

G|------55----------55----------------|
D|----7----7-----7------5------55-----|
A|--5---------5--------------7----7---|
E|-------------------------5--------5-|

G|---------------|
D|---------------|
A|-7-7-7-7-7-7-7-|
E|---------------|

Y va al ultimo coro solo 3 veces

G|----------------------------------------------------|
D|--------------------------------------55-------55---| -(X3)
A|------------------------------------7----7---7----7-|
E|-1-1-1-1-1-1-1-1--3-3-3-3-3-3-3-3-5--------5--------|

G|-----------------------------------------------------|
D|-----------------------------------------------------|
A|-----------------------------------------------------|
E|-1-1-1-1-1-1-1-1--3-(dejas sonando esta no al final)-|

BUENO ESTA ES LA TABLATURA MAS LARGA K HE HECHO
Y AKI ESTA TODA LA TRANSCRIPCION EN SERIO LA ESCRIBI
Y EXPLIQUE LO MAS CLARO K PUDE, CUALKIER DUDA O SUGERENCIA
MI E-MAIL

sebaska_182@hotmail.com
Este fichero es trabajo propio de su transcriptor y representa su interpretación personal de la canción. El material contenido en esta página es para exclusivo uso privado, por lo que se prohibe su reproducción o retransmisión, así como su uso para fines comerciales.

Fuente: Amores Lejanos: Letra y Acordes (LaCuerda.net)


Otras partituras que podrían interesarte: