acordes.cc 
 letras y acordes > d > divididos > amor japonés diccionario de acordes 
Amor japonés de Divididos
AUTOR: Jorge Araujo, Diego Arnedo, Ricardo Mollo
Divididos Tabs
LaCuerda.net
imprimir Amor japonés de Divididos 
INTRO:

E|---------7--7-h-9-h--7----------5--5-h-7-h-5----------3--3-h-5-h-3----------|
B|----s-9-----------------9---s-7---------------7--s-5---------------5-4------|
G|----------------------------------------------------------------------------|
D|----------------------------------------------------------------------------|
A|----------------------------------------------------------------------------|
E|----------------------------------------------------------------------------|



 E/7          D/7
Amor japonés, quilombo y estrés
 C/9              B/7
Próstata y bronceador
 E/7            D/7
Cagador social, fuma en el avión
 C/9             B/7
Hay boicot de yarará
 A/7
Negro bailarín, no sabe combinar
 G/7
Como Siman en Cancun
 F#/7                                   B7    (B7 - A7)
Bostezando te acordaste de esa mina de Carhue

Por clavo de olor, confusión anal
El jabón Virginia está
Se parió de sí, se comió los pies
Y se fue por la nariz

Negro bailarín, no sabe combinar
Oxidándose en Hawaii
Bostezando te acordaste de esa mina de Carhue

SOLO SOBRE: (E/7 - D/7 - C/9 - B/7)*2

Negro bailarín, no sabe combinar
Como cuesta ser feliz
Bostezando te acordaste de esa mina de Carhue


    E    D    C    B       A    G    F#   B7   A7
E|--0--------------2----|--5----3----2----2----0---|
B|--5----3----3----0----|--5----3----2----0----2---|
G|--7----5----3----2----|--6----4----3----2----0---|
D|--6----4----2----1----|--5----3----2----1----2---|
A|--7----5----3----2----|--7----5----4----2----0---|
E|----------------------|--5----3----2---------x---|
Este fichero es trabajo propio de su transcriptor y representa su interpretación personal de la canción. El material contenido en esta página es para exclusivo uso privado, por lo que se prohibe su reproducción o retransmisión, así como su uso para fines comerciales.

Fuente: Amor japonés: Letra y Acordes (LaCuerda.net)


Otras partituras que podrían interesarte: