acordes.cc 
 letras y acordes > j > joan sebastian > amarte diccionario de acordes 
Amarte de Joan Sebastian
AUTOR: Joan Sebastían
Joan Sebastian Tabs
LaCuerda.net
imprimir Amarte de Joan Sebastian 
Intro:


e--5-7-8-10--10/12--13-12--10-10-/12-
B-5----------------------------------
G------------------------------------
D------------------------------------
A------------------------------------
E------------------------------------

e--5-7-8-10--10/12--13-12--8-8-5-----
B-5----------------------------------
G------------------------------------
D------------------------------------
A------------------------------------
E------------------------------------    X2



 Am              Dm
Amarte tiene un sabor tan fresco
        E7                 Am
que a veces pienso que yo no merezco
  Am                   Dm
cortar la fruta de tu tierno huerto
        E7                  Am
creo estar soñando pero no, es cierto.

   Am                     Dm
Amarte tiene un sabor distinto
             E7                Am
que me emborracha como el vino tinto
  Am                      Dm
amarte tiene color de aventura
           E7            Am
tienes coraje y tienes... ternura.

  Am       Dm     G      Am
De luna a sol soy un pincel
              E                Am
que no hace más que dibujar tu piel.
           Dm      G     Am
De luna a sol soy un pintor
            E                  Am
en el paisaje de este hermoso amor.
Este fichero es trabajo propio de su transcriptor y representa su interpretación personal de la canción. El material contenido en esta página es para exclusivo uso privado, por lo que se prohibe su reproducción o retransmisión, así como su uso para fines comerciales.

Fuente: Amarte: Letra y Acordes (LaCuerda.net)


Otras partituras que podrían interesarte: