acordes.cc 
 letras y acordes > a > andrés calamaro > alta suciedad diccionario de acordes 
Alta Suciedad de Andrés Calamaro
AUTOR: Andrés Calamaro
Andrés Calamaro Tabs
LaCuerda.net
imprimir Alta Suciedad de Andrés Calamaro 
hola soy ruben soy de haycan ate y me gusta este solo
100pre kise poder tocarlo y ahora q puedo lo comparto
   para ustedes...

ruben ex jamaika x face

alata suciedad

solo

|---------12----------------------------------------------|
|---15^-15--15--------------------------------------------|
|14^-----------14^h12-----9^-----12-14^-------------------|
|--------------------14/9----14--------14^-,-12-----------|
|----------------------------------------------14-12------|
|---------------------------------------------------15-12-|

|-15-12p15h12--12----12-19^--19-19^19---15p17h15--------|
|-15---------15--15^----------------------------17/-----|
|-------------------------------------------------------|
|-------------------------------------------------------|
|-------------------------------------------------------|
|-------------------------------------------------------|

|-14-17p14--17----15p19h15---------------------------------------------|
|---17----15----19--------19---12-15^-----------------------15^--------|
|------------------------------12-14^14-12------------12-14-14^^//9----|
|---------------------------------------------12-13-14-----------------|
|-------------------------------------------14-------------------------|
|----------------------------------------------------------------------|

|--------------------------------------------------------------|
|------------------------------------------------15^^----------|
|-7^--7-5-----7-6-5---4-2-----2-4-6-7-9-11-12-14-14^^----------|
|--------9-7-5-5-5---5-5-5^--------------------------14/2------|
|--------------------------------------------------------------|
|--------------------------------------------------------------|

Alta suciedad basura de la alta suciedad, no se p…
solo2
|----------------------------------------7-17^-17-15-17p15-17^--|
|-8/10 10^-8-10-10^--8--------8----7-8-10-----------------------|
|----------------9^-9-6^7-6--9----9-----------------------------|
|---------------------------------------------------------------|
|---------------------------------------------------------------|
|---------------------------------------------------------------|

|----12----12p15h12--12-------------------12p15h12-|
|-12-15^-12--------15------12p15h12--12-15---------|
|------------------------12--------14--------------|
|--------------------------------------------------|
|--------------------------------------------------|
|--------------------------------------------------|

|-------------------------------------------|
|---12p15h12-------12p15h12-15^-15-12p15h12-|
|-----------14h12-----------14^-14----------|
|----------------14-------------------------|
|-------------------------------------------|
|-------------------------------------------|

|-------------------------------------------|
|---------12--15^-15--3^-3------------------|
|-12p14h12-14-14^-14--2^-2-2^---------------|
|-------------------------------------------|
|-------------------------------------------|
|-------------------------------------------|

|--------------------------12-15^15--------------------------|
|-15^-15^15-15^15-15^15-15^--------15^--15-17h15h12----------|
|-------------------------------------------------16-12-14---|
|------------------------------------------------------------|
|------------------------------------------------------------|
|------------------------------------------------------------|


|---------------------------0--------------------|
|---------------------------0--------------------|
|-12-16h14h2----------------0--------------------|
|-----------16h14h12-14--14-2--------------------|
|---------------------------2--------------------|
|---------------------------0--------------------|
Este fichero es trabajo propio de su transcriptor y representa su interpretación personal de la canción. El material contenido en esta página es para exclusivo uso privado, por lo que se prohibe su reproducción o retransmisión, así como su uso para fines comerciales.

Fuente: Alta Suciedad: Letra y Acordes (LaCuerda.net)


Otras partituras que podrían interesarte: