acordes.cc 
 letras y acordes > a > amen > adiós diccionario de acordes 
Adiós de Amen
AUTOR: -?-
Amen Tabs
LaCuerda.net
imprimir Adiós de Amen 
Esta canciòn es brabaza. Cualquier duda escriban al mail, sobretodo por el *Solo


D*  = x577xx
C*  = x355xx
A+  = xx3221
B7  = x24242 (también puede ser 'B')


Intro: D* - C* - A...

A      A       F#m                  B7
Por amor nacimos, y muchas veces por amor morimos
      Bm           E-Eb-D       A   C#m 
sé que tu corazón no es para mi
A      A   F#m                B7      
sin dormir, bebiendo whisky por ti 
      Bm               E-Eb-D           A
y una triste expresión solo queda en mi.

Pre-Coro
C#m           F#m      Bm
Y aunque ayer te vi, mentí al decir
               E
que en estos días no pensé en ti
C#m      F#m         Dm
y en mi alma solo queda un momento
      G
para seguir diciéndote...

Coro
C   Am             Dm            G
Adiós, cómo duele perder tu mejor amor
C   Am            F                  E
adiós, siéntate y no digas más.

A            A       F#m      
Prendí un cigarrillo, y lloré tanto como
B7
si fuera un niño
      Bm          E-Eb-D        A
no te pude olvidar, no te puedo amar.

     C         D            A
Y sigo andando por la vida
        C       D         A
siempre con un trago a la deriva
       C        D
sin encontrar a alguien que
  C            D          C            D          C#m
pueda hacerme olvidar, sin encontrar un fin y una partida.

*Solo*
e|----------------------------------------------5-4-2/4/2------------------
B|--------------------------------------------------------5.--3-2/3/2---2--
G|-----2-<5>/4-2---2---6--6.-6/<4>.--6-4/6-4--------------------------4----
D|-2/4-----------4----<9><9>-----------------7-----------------------------
A|-------------------------------------------------------------------------
E|-------------------------------------------------------------------------

e|--------------------------------------5-7-7/9..9/7/5--9/7/5-9/7/5-9/7/5-9/7/5-
B|--------------------------------5-7-7-----------------------------------------
G|-4-2-1-2-1/2/1---1----1/2-4-4/6-----------------------------------------------
D|---------------4---2/4--------------------------------------------------------
A|------------------------------------------------------------------------------
E|------------------------------------------------------------------------------

e|--12--12--12->>>>>>>>>>------15------15------15------15------------|
B|-<15><15><15>>>>>>>>>>>-15/17---15/17---15/17---15/17---17/15-14..-|
G|-------------------------------------------------------------------|
D|-------------------------------------------------------------------|
A|-------------------------------------------------------------------|
E|-------------------------------------------------------------------|

Pre-Coro
C#m           F#m      Bm
Y aunque ayer te vi, mentí al decir
               E
que en estos días no pensé en ti
C#m      F#m         Dm
y en mi alma solo queda un momento
      G
para seguir diciéndote...

Coro
C    Am             Dm           G
Adiós, cómo duele perder a tu mejor amor
C    Am             Dm      G
adiós, siéntate y no digas más, oooh, por favor...
C    Am             Dm           G
Adiós, cómo duele perderte, amor
C    Am             F              E
adiós, siéntate y no digas más, oh, por favor...

Final: D - Dm - A - Bb - E - D - A - E - A






                 ------
              º-|¤    ¤|-º 
              º-| LuïS |-º
              º-|¤    ¤|-º
                 \    /
                |  |
      ·===========================·
      | luis_6cuerdas@hotmail.com |
      ·===========================·
Este fichero es trabajo propio de su transcriptor y representa su interpretación personal de la canción. El material contenido en esta página es para exclusivo uso privado, por lo que se prohibe su reproducción o retransmisión, así como su uso para fines comerciales.

Fuente: Adiós: Letra y Acordes (LaCuerda.net)


Otras partituras que podrían interesarte: