acordes.cc 
 letras y acordes > c > catupecu machu > a veces vuelvo diccionario de acordes 
A veces vuelvo de Catupecu Machu
AUTOR: Fernando Ruiz Díaz
Catupecu Machu Tabs
LaCuerda.net
imprimir A veces vuelvo de Catupecu Machu 
              C#5            G#5         Hacer esto sobre la estrofa.
e------------------------- / -----------------------I
b-------------6-6-6-6-6--- / ----------6-6-6-6-6----I
g-------------6-6-6-6-6--- / ----------6-6-6-6-6----I
d------------------------- / -----------------------I
a---4-4-4-4-4-4----------- / 4-4-4-4-4-4------------I
E------------------------- / 4-4-4-4-4-4------------I

C#5/G#5
Olvido todo este frió reunido de una sola vez.
De vez en cuando, cada tanto
los juegos prohibidos nos sacan ese frió.
Escurro entre tus dedos
                         G#5
tus canciones, tus mitos hoy.

Pre-Estribillo
C#5
Y es que estamos desesperados
C#*
por encontrarnos y vernos hoy
            G#5
y vernos hoy que...


F#5       A#5
Mas deseo mas me alejo
G#5
soy un extraño aquí en mi cuerpo
F#5         A#5
tanta calma desespero
G#5
salgo mucho a veces vuelvo

Mas deseo mas me alejo
soy un extraño aquí en mi cuerpo
tanta calma desespero
G#5
salgo mucho a veces vuelvo

C#/G#5
Crujen los maderos de viejos andenes.
Las vías muertas nos quieren llevar
a nuevos cruces infinitos
Destinos imposibles,
           F#5
noches de nunca acabar.

Pre-Estribillo

C#5
Y es que estamos desesperados
C#5*
por encontrarnos y vernos hoy
G#5
Maaaa aaaaaas


Estribillo

F#5       A#5
Mas deseo mas me alejo
G#5
soy un extraño aquí en mi cuerpo
F#5         A#5
tanta calma desespero
G#5
salgo mucho a veces vuelvo

Mas deseo mas me alejo
soy un extraño aquí en mi cuerpo
tanta calma desespero
salgo mucho a veces vuelvo
G#5
Maaaaaa aaaasss

PUNTEO:

e----------------------------------------------------------
b----------------------------------------------------------
g--------------3--3-3-------3-6-6--------------------------
d----------5-6--------5-6---------6-6-6--6-----------------
a--------4---------------------------------6--6-6----------
E--3-4-6---------------------------------------------3-4-6-



e-------------------------------------------------------
b-------------------------------------------------------
g-------------------------------------------------------
d----6-6--5-5---3--3-----------------6-6-6-6-6-6-6------
a-4------------------6---------------6-6-6-6-6-6-6------
E----------------------4-4-4-4-4-4-4-4-4-4-4-4-4-4------


e----------------------------------------------------------
b---------------------------------------------------------4
g-------------------6-5----3-----------------6-5---3-6-5-6-
d------------------------6-----------------------6---------
a-----4-6---4-6------------------4-6-----4-6---------------
E-4-2----4-6-----------------4-2------4-6------------------

e-----------------------------------------------------------
b-----------------------------------------------------------
g-----------------------------------------------------------
d------------6-6--5-5--3-3--------------------6-6-6-6-6-6-6-
a------4-6--------------------6---------------6-6-6-6-6-6-6-
E-4-2---------------------------4-4-4-4-4-4-4-4-4-4-4-4-4-4-

Mas deseo mas me alejo
soy un extraño aquí en mi cuerpo
tanta calma desespero
salgo mucho a veces vuelvo

F#5           A#5
salgo mucho a veces vuelvo,
 G#5
salgo mucho a veces vuelvo,
 G#5
salgo mucho a veces vuelvo,
F#5          F#5
salgo mucho


a veces vuelvo.....


C#5*:
e------------------------------------------
b------------------------------------------
g------------------------------------------
d------6-----------------------------------
a------6-----------------------------------
E------------------------------------------


POR JUANMA COLOMBARA. ES UNA CORRECCIÓN DE VARIAS
LETRAS CON ACORDES QUE VI EN INTERNET Y NO ESTABAN DEL
TODO BIEN.SI TIENEN ALGO PARA AGREGAR O CORREGIR SERÁ BIENVENIDO!
Este fichero es trabajo propio de su transcriptor y representa su interpretación personal de la canción. El material contenido en esta página es para exclusivo uso privado, por lo que se prohibe su reproducción o retransmisión, así como su uso para fines comerciales.

Fuente: A veces vuelvo: Letra y Acordes (LaCuerda.net)


Otras partituras que podrían interesarte: