acordes.cc 
 letras y acordes > e > extremoduro > a fuego diccionario de acordes 
A Fuego de Extremoduro
AUTOR: Iñaki Antón, Roberto Iniesta
Extremoduro Tabs
LaCuerda.net
imprimir A Fuego de Extremoduro 
                              A Fuego
NOTA:

Espero y te ayude en algo esta tab.

Si necesitas una tab en especial, escríbeme o visita...

http://www.myspace.com/alejandrolauyola

     Q.     H        E     Q.     H        E     W
G||---------------------|---------------------|-------------------|
D||---------------------|---------------------|-------------------|
A||------------------1--|--L------3--------5--|--L----------------|
E||--3------5-----------|---------------------|-------------------|


  W                   Q.     H        E     Q.     H        E
-------------------|---------------------|---------------------|
-------------------|---------------------|---------------------|
--L----------------|------------------1--|--L------3--------5--|
-------------------|--3------5-----------|---------------------|


  W                   W                   E  E  E  E  E  E  E  E
-------------------|-------------------|--------------------------|
-------------------|-------------------|--------------------------|
--L----------------|--L----------------|--------------------------|
-------------------|-------------------|--3--3--3--3--5--5--5--5--|


  E  E  E  E  E  E  E  E     E  E  E  E  E  E  E  E
--------------------------|--------------------------|
--------------------------|--------------------------|
--------------------------|--------------------------|
--3--3--3--3--5--5--5--5--|--3--3--3--3--5--5--5--5--|


  E  E  E  E  E  E  E  E     E  E  E  E  E  E  E  E
--------------------------|--------------------------|
--------------------------|--------------------------|
--------------------------|--------------------------|
--3--3--3--3--5--5--5--5--|--3--3--3--3--5--5--5--5--|


  E  E  E  E  E  E  E  E     E  E  E  E  E  E  E  E
--------------------------|--------------------------|
--------------------------|--------------------------|
--------------------------|--------------------------|
--3--3--3--3--5--5--5--5--|--3--3--3--3--5--5--5--5--|


  E  E  E  E  E  E  E  E     Q    E  Q.     E  E
--------------------------|-----------------------|
--------------------------|-----------------------|
--------------------------|-----------------------|
--3--3--3--3--5--5--5--5--|--3-------5---------3--|


  Q    E  Q.     Q       Q    E  Q.     E  E     Q    E  Q.     Q
----------------------|-----------------------|----------------------|
----------------------|-----------------------|----------------------|
----------------------|-----------------------|----------------------|
--L-------5-----------|--3-------5---------3--|--L-------5------L----|


  E  E  E  E  E  E  E  E     E  E  E  E  E  E  E  E
--------------------------|--------------------------|
--------------------------|--------------------------|
--------------------------|--------------------------|
--3--3--3--3--5--5--5--5--|--3--3--3--3--5--5--5--5--|


  E  E  E  E  E  E  E  E     E  E  E  E  E  E  E  E
--------------------------|--------------------------|
--------------------------|--------------------------|
--------------------------|--------------------------|
--3--3--3--3--5--5--5--5--|--3--3--3--3--5--5--5--5--|


  E  E  E  E  E  E  E  E     E  E  E  E  E  E  E  E
--------------------------|--------------------------|
--------------------------|--------------------------|
--------------------------|--------------------------|
--3--3--3--3--5--5--5--5--|--3--3--3--3--5--5--5--5--|


  E  E  E  E  E  E  E  E     E  E  E  E  E  E  E  E
--------------------------|--------------------------|
--------------------------|--------------------------|
--------------------------|--------------------------|
--3--3--3--3--5--5--5--5--|--3--3--3--3--5--5--5--5--|


  E  E  E  E  E  E  E  E     E  E  E  E  E  E  E  E
--------------------------|--------------------------|
--------------------------|--------------------------|
--------------------------|--------------------------|
--3--3--3--3--5--5--5--5--|--3--3--3--3--5--5--5--5--|


  E  E  E  E  E  E  E  E     E  E  E  E  E  E  E  E
--------------------------|--------------------------|
--------------------------|--------------------------|
--------------------------|--------------------------|
--3--3--3--3--5--5--5--5--|--3--3--3--3--5--5--5--5--|


  Q.     Q.     Q       W                   Q.     Q.     Q
---------------------|-------------------|---------------------|
---------------------|-------------------|---------------------|
--3------3------3----|--L----------------|--5------5------5----|
---------------------|-------------------|---------------------|


  Q.     Q.     Q       Q.     Q.     Q       Q.     Q.     Q
---------------------|---------------------|---------------------|
---------------------|---------------------|---------------------|
--5------5------5----|---------------------|---------------------|
---------------------|--3------5------L----|--3------5------L----|


  Q.     Q.     Q       Q.     Q.     Q       Q.     Q.     Q
---------------------|---------------------|---------------------|
---------------------|---------------------|---------------------|
---------------------|---------------------|---------------------|
--3------5------L----|--3------5------L----|--3------5------L----|


  Q.     Q.     Q       Q.     Q.     Q       Q.     Q.     Q
---------------------|---------------------|---------------------|
---------------------|---------------------|---------------------|
---------------------|---------------------|---------------------|
--3------5------L----|--3------5------L----|--3------5------L----|


  E  E  E  E  E  E  E  E     E  E  E  E  E  E  E  E
--------------------------|--------------------------|
--------------------------|--------------------------|
--------------------------|--3--3--3--3--3--3--3--3--|
--3--3--3--3--3--3--3--3--|--------------------------|


  E  E  E  E  E  E  E  E     E  E  E  E  E  E  E  E
--------------------------|--------------------------|
--------------------------|--------------------------|
--5--5--5--5--5--5--5--5--|--6--6--6--6--6--6--1--0--|
--------------------------|--------------------------|


  E  E  E  E  E  E  E  E     E  E  E  E  E  E  E  E
--------------------------|--------------------------|
--------------------------|--------------------------|
--------------------------|--3--3--3--3--3--3--3--3--|
--3--3--3--3--3--3--3--3--|--------------------------|


  E  E  E  E  E  E  E  E     E  E  E  E  E  E  E  E
--------------------------|--------------------------|
--------------------------|--------------------------|
--5--5--5--5--5--5--5--5--|--6--6--6--6--6--6--6--6--|
--------------------------|--------------------------|


  Q.     Q.     Q       Q.     Q.     Q       Q    E  E  E  E  E  E
---------------------|---------------------|-------------------------|
---------------------|---------------------|-------------------------|
---------------------|--6------6------5----|-------------------------|
--0------0------0----|---------------------|--3----3--3--3--3--3--6--|


  Q    E  E  E  E  Q       Q.     Q.     Q       Q.     Q.     Q
------------------------|--5------5------5----|---------------------|
------------------------|---------------------|---------------------|
------------------------|---------------------|--6------6------5----|
--L----3--3--3--3--3----|---------------------|---------------------|


  Q    E  E  E  E  E  E     Q    E  E  E  E  Q
-------------------------|------------------------|
-------------------------|------------------------|
-------------------------|------------------------|
--3----3--3--3--3--3--6--|--L----3--3--3--3--3----|


  Q.     Q.     Q       Q.     Q.     Q       Q    E  E  E  E  E  E
---------------------|---------------------|-------------------------|
---------------------|---------------------|-------------------------|
---------------------|--6------6------5----|-------------------------|
--0------0------0----|---------------------|--3----3--3--3--3--3--6--|


  Q    E  E  E  E  Q       Q.     Q.     Q       Q.     Q.     Q
------------------------|---------------------|---------------------|
------------------------|---------------------|---------------------|
------------------------|---------------------|--6------6------6----|
--L----3--3--3--3--3----|--0------0------0----|---------------------|


  W                   W                   E  E  E  E  E  E  E  E
-------------------|-------------------|--------------------------|
-------------------|-------------------|--------------------------|
--6----------------|--L----------------|--------------------------|
-------------------|-------------------|--3--3--3--3--5--5--5--5--|


  E  E  E  E  E  E  E  E     E  E  E  E  E  E  E  E
--------------------------|--------------------------|
--------------------------|--------------------------|
--------------------------|--------------------------|
--3--3--3--3--5--5--5--5--|--3--3--3--3--5--5--5--5--|


  E  E  E  E  E  E  E  E     E  E  E  E  E  E  E  E
--------------------------|--------------------------|
--------------------------|--------------------------|
--------------------------|--------------------------|
--3--3--3--3--5--5--5--5--|--3--3--3--3--5--5--5--5--|


  E  E  E  E  E  E  E  E     E  E  E  E  E  E  E  E
--------------------------|--------------------------|
--------------------------|--------------------------|
--------------------------|--------------------------|
--3--3--3--3--5--5--5--5--|--3--3--3--3--5--5--5--5--|


  E  E  E  E  E  E  E  E     Q.     Q.     Q
--------------------------|---------------------|
--------------------------|---------------------|
--------------------------|--3------3------3----|
--3--3--3--3--5--5--5--5--|---------------------|


  Q    E  E  Q    Q       Q.     Q.     Q
-----------------------|---------------------|
-----------------------|---------------------|
--L----3---------------|--5------5------8----|
----------3--6----5----|---------------------|


    E  E  E  E  E  E  E  E     Q.     Q.     Q
----------------------------|---------------------|
--3g4--4--4--4--4--4--4--4--|---------------------|
----------------------------|---------------------|
----------------------------|--3------5------L----|


  Q.     Q    E  Q       Q.     Q.     Q       Q.     Q    E  Q
----------------------|---------------------|----------------------|
----------------------|---------------------|----------------------|
-----------------5----|---------------------|-----------------5----|
--3------5----5-------|--3------5------L----|--3------5----5-------|


  E  E  E  E  E  E  E  E     E  E  E  E  E  E  E  E
--------------------------|--------------------------|
--------------------------|--------------------------|
--------------------------|--------------------------|
--3--3--3--3--5--5--5--5--|--3--3--3--3--5--5--5--5--|


  E  E  E  E  E  E  E  E     E  E  E  E  E  E  E  E
--------------------------|--------------------------|
--------------------------|--------------------------|
--------------------------|--------------------------|
--3--3--3--3--5--5--5--5--|--3--3--3--3--5--5--5--5--|


  E  E  E  E  E  E  E  E     E  E  E  E  E  E  E  E
--------------------------|--------------------------|
--------------------------|--------------------------|
--------------------------|--------------------------|
--3--3--3--3--5--5--5--5--|--3--3--3--3--5--5--5--5--|


  E  E  E  E  E  E  E  E     E  E  E  E  E  E  E  E
--------------------------|--------------------------|
--------------------------|--------------------------|
--------------------------|--------------------------|
--3--3--3--3--5--5--5--5--|--3--3--3--3--5--5--5--5--|


  Q.     Q.     Q       W                   Q.     Q.     Q
---------------------|-------------------|---------------------|
---------------------|-------------------|---------------------|
--3------3------3----|--L----------------|--5------5------5----|
---------------------|-------------------|---------------------|


  Q.     Q.     Q       Q.     Q.     Q       Q.     Q.     Q
---------------------|---------------------|---------------------|
---------------------|---------------------|---------------------|
--5------5------5----|---------------------|---------------------|
---------------------|--3------5------L----|--3------5------L----|


  Q.     Q.     Q       Q.     Q.     Q
---------------------|---------------------|
---------------------|---------------------|
---------------------|---------------------|
--3------5------L----|--3------5------L----|


  E  E  E  E  E  E  E  E     E  E  E  E  E  E  E  E
--------------------------|--------------------------|
--------------------------|--------------------------|
--------------------------|--3--3--3--3--3--3--3--3--|
--3--3--3--3--3--3--3--3--|--------------------------|


  E  E  E  E  E  E  E  E     E  E  E  E  E  E  E  E
--------------------------|--------------------------|
--------------------------|--------------------------|
--5--5--5--5--5--5--5--5--|--6--6--6--6--6--6--1--0--|
--------------------------|--------------------------|


  E  E  E  E  E  E  E  E     E  E  E  E  E  E  E  E
--------------------------|--------------------------|
--------------------------|--------------------------|
--------------------------|--3--3--3--3--3--3--3--3--|
--3--3--3--3--3--3--3--3--|--------------------------|


  E  E  E  E  E  E  E  E     E  E  E  E  E  E  E  E
--------------------------|--------------------------|
--------------------------|--------------------------|
--5--5--5--5--5--5--5--5--|--6--6--6--6--6--6--6--6--|
--------------------------|--------------------------|


  E  E  E  E  E  E  E  E     E  E  E  E  E  E  E  E
--------------------------|--------------------------|
--------------------------|--------------------------|
--------------------------|--3--3--3--3--3--3--3--3--|
--3--3--3--3--3--3--3--3--|--------------------------|


  E  E  E  E  E  E  E  E     E  E  E  E  E  E  E  E
--------------------------|--------------------------|
--------------------------|--------------------------|
--5--5--5--5--5--5--5--5--|--6--6--6--6--6--6--1--0--|
--------------------------|--------------------------|


  E  E  E  E  E  E  E  E     E  E  E  E  E  E  E  E
--------------------------|--------------------------|
--------------------------|--------------------------|
--------------------------|--3--3--3--3--3--3--3--3--|
--3--3--3--3--3--3--3--3--|--------------------------|


  E  E  E  E  E  E  E  E     E  E  E  E  E  E  E  E
--------------------------|--------------------------|
--------------------------|--------------------------|
--5--5--5--5--5--5--5--5--|--6--6--6--6--6--6--6--6--|
--------------------------|--------------------------|


  Q    E  Q.     Q       Q    E  Q.     Q       Q    E  Q.     Q
----------------------|----------------------|----------------------|
----------------------|----------------------|----------------------|
----------------------|----------5-----------|----------------------|
--3-------5-----------|--3-------------------|--3-------5-----------|


  Q    E  Q.     Q       E  E  E  E  E  E  E  E
----------------------|--------------------------|
----------------------|--------------------------|
----------5------L----|--6--6--6--6--6--6--5--5--|
--3-------------------|--------------------------|


  E  E  E  E  E  E  E  E     Q    E  E  E  E  E  E
--------------------------|-------------------------|
--------------------------|-------------------------|
--3--3--3--1--1--1--0--0--|-------------------------|
--------------------------|--3----3--3--3--3--3--6--|


  Q    E  E  E  E  E  E     E  E  E  E  E  E  E  E
-------------------------|--------------------------|
-------------------------|--------------------------|
-------------------------|--6--6--6--6--6--6--5--5--|
--L----3--3--3--3--3--3--|--------------------------|


  E  E  E  E  E  E  E  E     Q    E  E  E  E  E  E
--------------------------|-------------------------|
--------------------------|-------------------------|
--3--3--3--1--1--1--0--0--|-------------------------|
--------------------------|--3----3--3--3--3--3--6--|


  Q    E  E  E  E  E  E     E  E  E  E  E  E  E  E
-------------------------|--------------------------|
-------------------------|--------------------------|
-------------------------|--6--6--6--6--6--6--5--5--|
--L----3--3--3--3--3--3--|--------------------------|


  E  E  E  E  E  E  E  E     Q    E  E  E  E  E  E
--------------------------|-------------------------|
--------------------------|-------------------------|
--3--3--3--1--1--1--0--0--|-------------------------|
--------------------------|--3----3--3--3--3--3--6--|


  Q    E  E  E  E  E  E     E  E  E  E  E  E  E  E
-------------------------|--------------------------|
-------------------------|--------------------------|
-------------------------|--6--6--6--6--6--6--5--5--|
--L----3--3--3--3--3--3--|--------------------------|


  E  E  E  E  E  E  E  E     Q.     H        E
--------------------------|---------------------|
--------------------------|---------------------|
--3--3--3--1--1--1--0--0--|------------------1--|
--------------------------|--3------5-----------|


  Q.     H        E     W                   W
---------------------|-------------------|-------------------|
---------------------|-------------------|-------------------|
--L------3--------5--|--L----------------|--L----------------|
---------------------|-------------------|-------------------|


  Q    E  Q.     Q       Q    E  Q.     Q       Q    E  Q.     Q
----------------------|----------------------|----------------------|
----------------------|----------------------|----------------------|
----------------------|----------------------|----------------------|
--3-------5-----------|--3-------5-----------|--3-------5-----------|


  Q    E  Q.     Q       E  E  E  E  E  E  E  E
----------------------|--------------------------|
----------------------|--------------------------|
----------------------|--------------------------|
--3-------5------L----|--3--3--3--3--3--3--3--3--|


  E  E  E  E  E  E  E  E     E  E  E  E  E  E  E  E
--------------------------|--------------------------|
--------------------------|--------------------------|
--3--3--3--3--3--3--3--3--|--5--5--5--5--5--5--5--5--|
--------------------------|--------------------------|


  E  E  E  E  E  E  E  E     E  E  E  E  E  E  E  E
--------------------------|--------------------------|
--------------------------|--------------------------|
--6--6--6--6--6--6--1--0--|--------------------------|
--------------------------|--3--3--3--3--3--3--3--3--|


  E  E  E  E  E  E  E  E     E  E  E  E  E  E  E  E
--------------------------|--------------------------|
--------------------------|--------------------------|
--3--3--3--3--3--3--3--3--|--5--5--5--5--5--5--5--5--|
--------------------------|--------------------------|


  E  E  E  E  E  E  E  E     E  E  E  E  E  E  E  E
--------------------------|--------------------------|
--------------------------|--------------------------|
--6--6--6--3--3--3--1--0--|--------------------------|
--------------------------|--3--3--3--3--3--3--3--3--|


  E  E  E  E  E  E  E  E     E  E  E  E  E  E  E  E
--------------------------|--------------------------|
--------------------------|--------------------------|
--3--3--3--3--3--3--3--3--|--5--5--5--5--5--5--5--5--|
--------------------------|--------------------------|


  E  E  E  E  E  E  E  E     E  E  E  E  E  E  E  E
--------------------------|--------------------------|
--------------------------|--------------------------|
--6--6--6--6--6--6--1--0--|--------------------------|
--------------------------|--3--3--3--3--3--3--3--3--|


  E  E  E  E  E  E  E  E     E  E  E  E  E  E  E  E
--------------------------|--------------------------|
--------------------------|--------------------------|
--3--3--3--3--3--3--3--3--|--5--5--5--5--5--5--5--5--|
--------------------------|--------------------------|


  E  E  E  E  E  E  E  E     E  E  E  E  E  E  E  E
--------------------------|--------------------------|
--------------------------|--------------------------|
--6--6--6--6--6--6--6--6--|--6--6--6--6--6--6--6--6--|
--------------------------|--------------------------|


  E  E  E  E  E  E  E  E     Q    E  E  E  E  E  E
--------------------------|-------------------------|
--------------------------|-------------------------|
--3--3--3--3--3--3--3--3--|-------------------------|
--------------------------|--3----3--3--3--3--3--6--|


  Q    E  E  E  E  E  E     E  E  E  E  E  E  E  E
-------------------------|--------------------------|
-------------------------|--------------------------|
-------------------------|--4--4--4--4--4--4--4--4--|
--L----3--3--3--3--3--3--|--------------------------|


  E  E  E  E  E  E  E  E     Q    E  E  E  E  E  E
--------------------------|-------------------------|
--------------------------|-------------------------|
--6--6--6--6--6--6--6--6--|-------------------------|
--------------------------|--3----3--3--3--3--3--6--|


  Q    E  E  E  E  E  E     E  E  E  E  E  E  E  E
-------------------------|--------------------------|
-------------------------|--------------------------|
-------------------------|--7--7--7--7--7--7--7--7--|
--L----3--3--3--3--3--3--|--------------------------|


  E  E  E  E  E  E  E  E     Q    E  E  E  E  E  E
--------------------------|-------------------------|
--------------------------|-------------------------|
--6--6--6--6--6--6--6--6--|-------------------------|
--------------------------|--3----3--3--3--3--3--6--|


  Q    E  E  E  E  E  E     E  E  E  E  E  E  E  E
-------------------------|--------------------------|
-------------------------|--------------------------|
-------------------------|--7--7--7--7--7--7--7--7--|
--L----3--3--3--3--3--3--|--------------------------|


  E  E  E  E  E  E  E  E     W                   W
--------------------------|-------------------|-------------------|
--------------------------|-------------------|-------------------|
--6--6--6--6--6--6--6--6--|--6----------------|--L----------------|
--------------------------|-------------------|-------------------|


  Q    E  Q.     Q       Q    E  Q.     Q       Q    E  Q.     Q
----------------------|----------------------|----------------------|
----------------------|----------------------|----------------------|
----------------------|----------------------|----------------------|
--3-------5-----------|--3-------5-----------|--3-------5-----------|


  Q    E  Q.     Q       E  E  E  E  E  E  E  E
----------------------|--------------------------|
----------------------|--------------------------|
----------------------|--------------------------|
--3-------5------L----|--3--3--3--3--3--3--3--3--|


  E  E  E  E  E  E  E  E     E  E  E  E  E  E  E  E
--------------------------|--------------------------|
--------------------------|--------------------------|
--3--3--3--3--3--3--3--3--|--5--5--5--5--5--5--5--5--|
--------------------------|--------------------------|


  E  E  E  E  E  E  E  E     E  E  E  E  E  E  E  E
--------------------------|--------------------------|
--------------------------|--------------------------|
--6--6--6--6--6--6--1--0--|--------------------------|
--------------------------|--3--3--3--3--3--3--3--3--|


  E  E  E  E  E  E  E  E     E  E  E  E  E  E  E  E
--------------------------|--------------------------|
--------------------------|--------------------------|
--3--3--3--3--3--3--3--3--|--5--5--5--5--5--5--5--5--|
--------------------------|--------------------------|


  E  E  E  E  E  E  E  E     E  E  E  E  E  E  E  E
--------------------------|--------------------------|
--------------------------|--------------------------|
--6--6--6--3--3--3--1--0--|--------------------------|
--------------------------|--3--3--3--3--3--3--3--3--|


  E  E  E  E  E  E  E  E     E  E  E  E  E  E  E  E
--------------------------|--------------------------|
--------------------------|--------------------------|
--3--3--3--3--3--3--3--3--|--5--5--5--5--5--5--5--5--|
--------------------------|--------------------------|


  E  E  E  E  E  E  E  E     E  E  E  E  E  E  E  E
--------------------------|--------------------------|
--------------------------|--------------------------|
--6--6--6--6--6--6--1--0--|--------------------------|
--------------------------|--3--3--3--3--3--3--3--3--|


  E  E  E  E  E  E  E  E     E  E  E  E  E  E  E  E
--------------------------|--------------------------|
--------------------------|--------------------------|
--3--3--3--3--3--3--3--3--|--5--5--5--5--5--5--5--5--|
--------------------------|--------------------------|


  E  E  E  E  E  E  E  E     E  E  E  E  E  E  E  E
--------------------------|--------------------------|
--------------------------|--------------------------|
--6--6--6--6--6--6--6--6--|--------------------------|
--------------------------|--3--3--3--3--3--3--3--3--|


  E  E  E  E  E  E  E  E     E  E  E  E  E  E  E  E
--------------------------|--------------------------|
--------------------------|--------------------------|
--3--3--3--3--3--3--3--3--|--5--5--5--5--5--5--5--5--|
--------------------------|--------------------------|


  E  E  E  E  E  E  E  E     E  E  E  E  E  E  E  E
--------------------------|--------------------------|
--------------------------|--------------------------|
--6--6--6--6--6--6--1--0--|--------------------------|
--------------------------|--3--3--3--3--3--3--3--3--|


  E  E  E  E  E  E  E  E     E  E  E  E  E  E  E  E
--------------------------|--------------------------|
--------------------------|--------------------------|
--3--3--3--3--3--3--3--3--|--5--5--5--5--5--5--5--5--|
--------------------------|--------------------------|


  E  E  E  E  E  E  E  E     E  E  E  E  E  E  E  E
--------------------------|--------------------------|
--------------------------|--------------------------|
--6--6--6--3--3--3--1--0--|--------------------------|
--------------------------|--3--3--3--3--3--3--3--3--|


  E  E  E  E  E  E  E  E     E  E  E  E  E  E  E  E
--------------------------|--------------------------|
--------------------------|--------------------------|
--3--3--3--3--3--3--3--3--|--5--5--5--5--5--5--5--5--|
--------------------------|--------------------------|


  E  E  E  E  E  E  E  E     E  E  E  E  E  E  E  E
--------------------------|--------------------------|
--------------------------|--------------------------|
--6--6--6--6--6--6--1--0--|--------------------------|
--------------------------|--3--3--3--3--3--3--3--3--|


  E  E  E  E  E  E  E  E     E  E  E  E  E  E  E  E
--------------------------|--------------------------|
--------------------------|--------------------------|
--3--3--3--3--3--3--3--3--|--5--5--5--5--5--5--5--5--|
--------------------------|--------------------------|


  E  E  E  E  E  E  E  E     E  E  E  E  E  E  E  E
--------------------------|--------------------------|
--------------------------|--------------------------|
--6--6--6--6--6--6--6--6--|--------------------------|
--------------------------|--3--3--3--3--3--3--3--3--|


  E  E  E  E  E  E  E  E     E  E  E  E  E  E  E  E
--------------------------|--------------------------|
--------------------------|--------------------------|
--3--3--3--3--3--3--3--3--|--5--5--5--5--5--5--5--5--|
--------------------------|--------------------------|


  E  E  E  Q.      Q       E  E  E  E  E  E  E  E
--------5--8------10----|--------------------------|
--5--8------------------|--------------------------|
------------------------|--------------------------|
------------------------|--3--3--3--3--3--3--3--3--|


  E  E  E  E  E  E  E  E     E  E  E  E  E  E  E  E
--------------------------|--------------------------|
--------------------------|--------------------------|
--3--3--3--3--3--3--3--3--|--5--5--5--5--5--5--5--5--|
--------------------------|--------------------------|


  E  E  E  E  E  E  E  E     E  E  E  E  E  E  E  E
--------------------------|--------------------------|
--------------------------|--------------------------|
--6--6--6--3--3--3--1--0--|--------------------------|
--------------------------|--3--3--3--3--3--3--3--3--|


  E  E  E  E  E  E  E  E     E  E  E  E  E  E  E  E
--------------------------|--------------------------|
--------------------------|--------------------------|
--3--3--3--3--3--3--3--3--|--5--5--5--5--5--5--5--5--|
--------------------------|--------------------------|


  E  E  E  E  E  E  E  E     E  E  E  E  E  E  E  E
--------------------------|--------------------------|
--------------------------|--------------------------|
--6--6--6--6--6--6--1--0--|--------------------------|
--------------------------|--3--3--3--3--3--3--3--3--|


  E  E  E  E  E  E  E  E     E  E  E  E  E  E  E  E
--------------------------|--------------------------|
--------------------------|--------------------------|
--3--3--3--3--3--3--3--3--|--5--5--5--5--5--5--5--5--|
--------------------------|--------------------------|


  E  E  E  E  E  E  E  E     E  E  E  E  E  E  E  E
--------------------------|--------------------------|
--------------------------|--------------------------|
--6--6--6--6--6--6--6--6--|--------------------------|
--------------------------|--3--3--3--3--3--3--3--3--|


  E  E  E  E  E  E  E  E     E  E  E  E  E  E  E  E
--------------------------|--------------------------|
--------------------------|--------------------------|
--3--3--3--3--3--3--3--3--|--5--5--5--5--5--5--5--5--|
--------------------------|--------------------------|


  E  E  E  E  E  E  E  E     E  E  E  E  E  E  E  E
--------------------------|--------------------------|
--------------------------|--------------------------|
--6--6--6--6--6--6--1--0--|--------------------------|
--------------------------|--3--3--3--3--3--3--3--3--|


  E  E  E  E  E  E  E  E     E  E  E  E  E  E  E  E
--------------------------|--------------------------|
--------------------------|--------------------------|
--3--3--3--3--3--3--3--3--|--5--5--5--5--5--5--5--5--|
--------------------------|--------------------------|


  E  E  E  E  E  E  E  E     E  E  E  E  E  E  E  E
--------------------------|--------------------------|
--------------------------|--------------------------|
--6--6--6--3--3--3--1--0--|--------------------------|
--------------------------|--3--3--3--3--3--3--3--3--|


  E  E  E  E  E  E  E  E     E  E  E  E  E  E  E  E
--------------------------|--------------------------|
--------------------------|--------------------------|
--3--3--3--3--3--3--3--3--|--5--5--5--5--5--5--5--5--|
--------------------------|--------------------------|


  E  E  E  E  E  E  E  E     E  E  E  E  E  E  E  E
--------------------------|--------------------------|
--------------------------|--------------------------|
--6--6--6--6--6--6--1--0--|--------------------------|
--------------------------|--3--3--3--3--3--3--3--3--|


  E  E  E  E  E  E  E  E     E  E  E  E  E  E  E  E
--------------------------|--------------------------|
--------------------------|--------------------------|
--3--3--3--3--3--3--3--3--|--5--5--5--5--5--5--5--5--|
--------------------------|--------------------------|


  E  E  E  E  E  E  E  E     E  E  E  E  E  E  E  E
--------------------------|--------------------------|
--------------------------|--------------------------|
--6--6--6--6--6--6--6--6--|--------------------------|
--------------------------|--3--3--3--3--3--3--3--3--|


  E  E  E  E  E  E  E  E     E  E  E  E  E  E  E  E
--------------------------|--------------------------|
--------------------------|--------------------------|
--3--3--3--3--3--3--3--3--|--5--5--5--5--5--5--5--5--|
--------------------------|--------------------------|


  E  E  E  E  E  E  E  E
--------------------------||
--------------------------||
--6--6--6--6--6--6--6--6--||
--------------------------||

NOTA:

Espero y te ayude en algo esta tab.

Si necesitas una tab en especial, escríbeme o visita...

http://www.myspace.com/alejandrolauyola

Duration Legend
---------------
W - whole
H - half
Q - quarter
E - 8th
S - 16th
T - 32nd
X - 64th
. - note dotted
|-n-|  - n-tuplets


Tablature Legend
----------------
L - tied note
x - dead note
g - grace note
(n) - ghost note
> - accentuded note
NH - natural harmonic
AH - artificial harmonic
TH - tapped harmonic
SH - semi harmonic
PH - pitch harmonic
h - hammer on
p - pull off
b - bend
br - bendRelease
pb - preBend
pbr - preBendRelease
brb - bendReleaseBend
n/ - tremolo bar dip
n - tremolo bar dive
-/n - tremolo bar Release up
/n - tremolo bar inverted dip
/n - tremolo bar return
-n - tremolo bar Release down
S - shift slide
s - legato slide
/ -  slide into from below or out of upwards
 -  slide into from above or out of downwards
~ - vibrato
W - wide vibrato
tr - trill
TP - tremolo picking
T - tapping
S - slap
P - pop
< - fade in
^ - brush up
v - brush down
Este fichero es trabajo propio de su transcriptor y representa su interpretación personal de la canción. El material contenido en esta página es para exclusivo uso privado, por lo que se prohibe su reproducción o retransmisión, así como su uso para fines comerciales.

Fuente: A Fuego: Letra y Acordes (LaCuerda.net)


Otras partituras que podrían interesarte: